Staind » Outside Acoustic — аккорды песни

Staind » Outside Acoustic - аккорды песни
Outside Acoustic

staind, outside acoustic.
Tabbed by tim lindberg, [email protected].

#------------------------------------------------------#
# note- this is the authors own work and is to be used #
# for reference and other private use only #
#------------------------------------------------------#
Outside by Staind
(acoustic)
{other tab parts put together}
standard tuning
tabbed by tim lindberg

verse1

|--------66666--44444444--222222---4----------------------|
|--------66666--44444444--222222---4----------------------|
|--------88888--66666666--222222---4----------------------|
|--------88888--66666666--444444---6----------------------|
|--------66666--44444444--444444---6----------------------|
|--------66666--44444444--222222---4----------------------|

chorus
(listen for timing and use)

E G D Am
|--------0-------3-------2-------0------------------------|
|--------0-------0-------3-------1------------------------|
|--------1-------0-------2-------2------------------------|
|--------2-------0-------0-------2------------------------|
|--------2-------2-------0-------0------------------------|
|--------0-------3-------0-------0------------------------|

verse 2

|--------66666--44444444--222222---4----------------------|
|--------66666--44444444--222222---4----------------------|
|--------88888--66666666--222222---4----------------------|
|--------88888--66666666--444444---6----------------------|
|--------66666--44444444--444444---6----------------------|
|--------66666--44444444--222222---4----------------------|

chorus
E G D Am
|--------0-------3-------2-------0------------------------|
|--------0-------0-------3-------1------------------------|
|--------1-------0-------2-------2------------------------|
|--------2-------0-------0-------2------------------------|
|--------2-------2-------0-------0------------------------|
|--------0-------3-------0-------0------------------------|

verse 3

|--------66666--44444444--222222---4----------------------|
|--------66666--44444444--222222---4----------------------|
|--------88888--66666666--222222---4----------------------|
|--------88888--66666666--444444---6----------------------|
|--------66666--44444444--444444---6----------------------|
|--------66666--44444444--222222---4----------------------|

chorus
(give it everything ya got!!!)
E G D Am
|--------0-------3-------2-------0------------------------|
|--------0-------0-------3-------1------------------------|
|--------1-------0-------2-------2------------------------|
|--------2-------0-------0-------2------------------------|
|--------2-------2-------0-------0------------------------|
|--------0-------3-------0-------0------------------------|

Lyrics

Verse 1:

When you, bring me to my knees,
All this time, that i can beg you please,
All the times, that i've felt insecure,
And i leave my burdens at the door.

Chorus:

i'm on the outside
i'm looking in
i can see through you
see your true colors
cause inside your ugly
ugly like me
i can see through you
see to the real you

Verse 2:

All this time, that i've felt like this won't end,
Was for you,
And i taste, but i could never have,
Is from you,
All those times, that i tried,
My intention, full of pride,
And i waste more time than anyone.

Chorus:

i'm on the outside
i'm looking in
i can see through you
see your true colors
cause inside your ugly
ugly like me
i can see through you
see to the real you

Verse 3:

All the times, that i cried
All this wasted, its all inside.
And i feel all this pain,
Stuffed it down, its back again.
And I lie, here in bed,
All alone, i can't mend.
And I feel tomarrow will be okay.

Chorus.

i'm on the outside
i'm looking in
i can see through you
see your true colors
cause inside your ugly
ugly like me
i can see through you
see to the real you

Have fun with this awesome song!!!